  0
SECTION
  2
HEADER
  9
$ACADVER
  1
AC1009
  9
$INSBASE
 10
0.0
 20
0.0
 30
0.0
  9
$EXTMIN
 10
-0.9455198035260465
 20
1.81151752270328
 30
0.0
  9
$EXTMAX
 10
6.5062196234862322
 20
19.215342560945839
 30
0.0
  9
$LIMMIN
 10
0.0
 20
0.0
  9
$LIMMAX
 10
12.0
 20
9.0
  9
$ORTHOMODE
 70
     1
  9
$REGENMODE
 70
     1
  9
$FILLMODE
 70
     1
  9
$QTEXTMODE
 70
     0
  9
$MIRRTEXT
 70
     1
  9
$DRAGMODE
 70
     2
  9
$LTSCALE
 40
0.6
  9
$OSMODE
 70
   111
  9
$ATTMODE
 70
     1
  9
$TEXTSIZE
 40
0.2
  9
$TRACEWID
 40
0.05
  9
$TEXTSTYLE
  7
ARIAL
  9
$CLAYER
  8
2-7
  9
$CELTYPE
  6
BYLAYER
  9
$CECOLOR
 62
   256
  9
$DIMSCALE
 40
1.0
  9
$DIMASZ
 40
0.125
  9
$DIMEXO
 40
0.0625
  9
$DIMDLI
 40
0.25
  9
$DIMRND
 40
0.0
  9
$DIMDLE
 40
0.0
  9
$DIMEXE
 40
0.0625
  9
$DIMTP
 40
0.0
  9
$DIMTM
 40
0.0
  9
$DIMTXT
 40
0.125
  9
$DIMCEN
 40
0.09
  9
$DIMTSZ
 40
0.0
  9
$DIMTOL
 70
     0
  9
$DIMLIM
 70
     0
  9
$DIMTIH
 70
     1
  9
$DIMTOH
 70
     1
  9
$DIMSE1
 70
     0
  9
$DIMSE2
 70
     0
  9
$DIMTAD
 70
     0
  9
$DIMZIN
 70
     4
  9
$DIMBLK
  1

  9
$DIMASO
 70
     1
  9
$DIMSHO
 70
     1
  9
$DIMPOST
  1

  9
$DIMAPOST
  1

  9
$DIMALT
 70
     0
  9
$DIMALTD
 70
     2
  9
$DIMALTF
 40
25.399999999999999
  9
$DIMLFAC
 40
1.0
  9
$DIMTOFL
 70
     0
  9
$DIMTVP
 40
0.0
  9
$DIMTIX
 70
     0
  9
$DIMSOXD
 70
     0
  9
$DIMSAH
 70
     0
  9
$DIMBLK1
  1

  9
$DIMBLK2
  1

  9
$DIMSTYLE
  2
STANDARD
  9
$DIMCLRD
 70
   256
  9
$DIMCLRE
 70
   256
  9
$DIMCLRT
 70
   256
  9
$DIMTFAC
 40
1.0
  9
$DIMGAP
 40
0.09
  9
$LUNITS
 70
     2
  9
$LUPREC
 70
     4
  9
$SKETCHINC
 40
0.1
  9
$FILLETRAD
 40
0.5
  9
$AUNITS
 70
     0
  9
$AUPREC
 70
     0
  9
$MENU
  1
.
  9
$ELEVATION
 40
0.0
  9
$PELEVATION
 40
0.0
  9
$THICKNESS
 40
0.0
  9
$LIMCHECK
 70
     0
  9
$BLIPMODE
 70
     0
  9
$CHAMFERA
 40
0.0
  9
$CHAMFERB
 40
0.0
  9
$SKPOLY
 70
     0
  9
$TDCREATE
 40
2452392.3517971062
  9
$TDUPDATE
 40
2452554.4602679391
  9
$TDINDWG
 40
0.1844206019
  9
$TDUSRTIMER
 40
0.1844180556
  9
$USRTIMER
 70
     1
  9
$ANGBASE
 50
0.0
  9
$ANGDIR
 70
     0
  9
$PDMODE
 70
     3
  9
$PDSIZE
 40
0.0
  9
$PLINEWID
 40
0.0
  9
$COORDS
 70
     2
  9
$SPLFRAME
 70
     0
  9
$SPLINETYPE
 70
     6
  9
$SPLINESEGS
 70
     8
  9
$ATTDIA
 70
     0
  9
$ATTREQ
 70
     1
  9
$HANDLING
 70
  4097
  9
$HANDSEED
  5
10F3
  9
$SURFTAB1
 70
     6
  9
$SURFTAB2
 70
     6
  9
$SURFTYPE
 70
     6
  9
$SURFU
 70
     6
  9
$SURFV
 70
     6
  9
$UCSNAME
  2

  9
$UCSORG
 10
0.0
 20
0.0
 30
0.0
  9
$UCSXDIR
 10
1.0
 20
0.0
 30
0.0
  9
$UCSYDIR
 10
0.0
 20
1.0
 30
0.0
  9
$PUCSNAME
  2

  9
$PUCSORG
 10
0.0
 20
0.0
 30
0.0
  9
$PUCSXDIR
 10
1.0
 20
0.0
 30
0.0
  9
$PUCSYDIR
 10
0.0
 20
1.0
 30
0.0
  9
$USERI1
 70
     0
  9
$USERI2
 70
     0
  9
$USERI3
 70
     0
  9
$USERI4
 70
     0
  9
$USERI5
 70
     0
  9
$USERR1
 40
1.0
  9
$USERR2
 40
25.399999999999999
  9
$USERR3
 40
0.0
  9
$USERR4
 40
0.0
  9
$USERR5
 40
0.0
  9
$WORLDVIEW
 70
     1
  9
$SHADEDGE
 70
     3
  9
$SHADEDIF
 70
    70
  9
$TILEMODE
 70
     1
  9
$MAXACTVP
 70
    48
  9
$PLIMCHECK
 70
     0
  9
$PEXTMIN
 10
1.0000000000000000E+020
 20
1.0000000000000000E+020
 30
1.0000000000000000E+020
  9
$PEXTMAX
 10
-1.0000000000000000E+020
 20
-1.0000000000000000E+020
 30
-1.0000000000000000E+020
  9
$PLIMMIN
 10
0.0
 20
0.0
  9
$PLIMMAX
 10
12.0
 20
9.0
  9
$UNITMODE
 70
     0
  9
$VISRETAIN
 70
     1
  9
$PLINEGEN
 70
     0
  9
$PSLTSCALE
 70
     1
  0
ENDSEC
  0
SECTION
  2
TABLES
  0
TABLE
  2
VPORT
 70
     2
  0
VPORT
  2
*ACTIVE
 70
     0
 10
0.0
 20
0.0
 11
1.0
 21
1.0
 12
2.730869940250217
 22
10.51927107111646
 13
0.0
 23
0.0
 14
0.5
 24
0.5
 15
0.5
 25
0.5
 16
0.0
 26
0.0
 36
1.0
 17
0.0
 27
0.0
 37
0.0
 40
17.92795580287266
 41
1.3665594855305461
 42
50.0
 43
0.0
 44
0.0
 50
0.0
 51
0.0
 71
     0
 72
   100
 73
     1
 74
     2
 75
     0
 76
     0
 77
     0
 78
     0
  0
ENDTAB
  0
TABLE
  2
LTYPE
 70
     3
  0
LTYPE
  2
CONTINUOUS
 70
     0
  3
Solid line
 72
    65
 73
     0
 40
0.0
  0
LTYPE
  2
CENTER
 70
     0
  3
Center ____ _ ____ _ ____ _ ____ _ ____ _ ____
 72
    65
 73
     4
 40
2.0
 49
1.25
 49
-0.25
 49
0.25
 49
-0.25
  0
LTYPE
  2
HIDDEN
 70
     0
  3
Hidden __ __ __ __ __ __ __ __ __ __ __ __ __ _
 72
    65
 73
     2
 40
0.375
 49
0.25
 49
-0.125
  0
ENDTAB
  0
TABLE
  2
LAYER
 70
     6
  0
LAYER
  2
0
 70
     0
 62
     7
  6
CONTINUOUS
  0
LAYER
  2
CENTERLINE
 70
     0
 62
     1
  6
CENTER
  0
LAYER
  2
2-7
 70
     0
 62
     2
  6
CONTINUOUS
  0
LAYER
  2
ADAPTER
 70
     0
 62
     3
  6
CONTINUOUS
  0
LAYER
  2
DRIVE_TANG
 70
     0
 62
     4
  6
CONTINUOUS
  0
LAYER
  2
DRIVE_INPUT
 70
     0
 62
     7
  6
CONTINUOUS
  0
ENDTAB
  0
TABLE
  2
STYLE
 70
     2
  0
STYLE
  2
STANDARD
 70
     0
 40
0.0
 41
1.0
 50
0.0
 71
     0
 42
0.2
  3
txt
  4

  0
STYLE
  2
ARIAL
 70
     0
 40
0.0
 41
1.0
 50
0.0
 71
     0
 42
0.2
  3
txt
  4

  0
ENDTAB
  0
TABLE
  2
VIEW
 70
     0
  0
ENDTAB
  0
TABLE
  2
UCS
 70
     0
  0
ENDTAB
  0
TABLE
  2
APPID
 70
     1
  0
APPID
  2
ACAD
 70
     0
  0
ENDTAB
  0
TABLE
  2
DIMSTYLE
 70
     1
  0
DIMSTYLE
  2
STANDARD
 70
     0
  3

  4

  5

  6

  7

 40
1.0
 41
0.125
 42
0.0625
 43
0.25
 44
0.0625
 45
0.0
 46
0.0
 47
0.0
 48
0.0
140
0.125
141
0.09
142
0.0
143
25.399999999999999
144
1.0
145
0.0
146
1.0
147
0.09
 71
     0
 72
     0
 73
     1
 74
     1
 75
     0
 76
     0
 77
     0
 78
     4
170
     0
171
     2
172
     0
173
     0
174
     0
175
     0
176
   256
177
   256
178
   256
  0
ENDTAB
  0
ENDSEC
  0
SECTION
  2
BLOCKS
  0
BLOCK
  8
0
  2
$MODEL_SPACE
 70
     0
 10
0.0
 20
0.0
 30
0.0
  3
$MODEL_SPACE
  1

  0
ENDBLK
  5
21
  8
0
  0
BLOCK
 67
     1
  8
0
  2
$PAPER_SPACE
 70
     0
 10
0.0
 20
0.0
 30
0.0
  3
$PAPER_SPACE
  1

  0
ENDBLK
  5
1D
 67
     1
  8
0
  0
ENDSEC
  0
SECTION
  2
ENTITIES
  0
LINE
  5
CE
  8
2-7
 10
-0.511064014060916
 20
4.105572714223281
 30
0.0
 11
5.9782965348514736
 21
4.105572714223281
 31
0.0
  0
LINE
  5
CF
  8
2-7
 10
-0.511064014060916
 20
7.3233287227032813
 30
0.0
 11
5.9782965348514736
 21
7.3233287227032768
 31
0.0
  0
LINE
  5
36A
  8
DRIVE_INPUT
  6
HIDDEN
 10
2.5367658603952812
 20
7.4020688827032757
 30
0.0
 11
2.5367658603952812
 21
7.7957696827032761
 31
0.0
  0
LINE
  5
36B
  8
DRIVE_INPUT
  6
HIDDEN
 10
2.9304666603952811
 20
7.7957696827032761
 30
0.0
 11
2.9304666603952811
 21
7.4020688827032757
 31
0.0
  0
LINE
  5
36C
  8
DRIVE_INPUT
  6
HIDDEN
 10
2.1824351403952811
 20
7.7957696827032761
 30
0.0
 11
2.1824351403952811
 21
7.3233287227032768
 31
0.0
  0
LINE
  5
36D
  8
DRIVE_INPUT
  6
HIDDEN
 10
3.2847973803952808
 20
7.7957696827032761
 30
0.0
 11
3.2847973803952808
 21
7.3233287227032777
 31
0.0
  0
LINE
  5
36E
  8
DRIVE_INPUT
  6
HIDDEN
 10
2.9304666603952811
 20
7.4020688827032757
 30
0.0
 11
2.5367658603952812
 21
7.4020688827032757
 31
0.0
  0
LINE
  5
36F
  8
DRIVE_INPUT
  6
HIDDEN
 10
2.1824351403952811
 20
7.7957696827032761
 30
0.0
 11
2.5367658603952812
 21
7.7957696827032761
 31
0.0
  0
LINE
  5
370
  8
DRIVE_INPUT
  6
HIDDEN
 10
2.9304666603952811
 20
7.7957696827032761
 30
0.0
 11
3.2847973803952808
 21
7.7957696827032761
 31
0.0
  0
LINE
  5
43C
  8
DRIVE_TANG
  6
HIDDEN
 10
2.191096557995281
 20
8.9871083035032768
 30
0.0
 11
3.2761359627952809
 21
8.9871083035032768
 31
0.0
  0
LINE
  5
43D
  8
DRIVE_TANG
  6
HIDDEN
 10
3.2761359627952809
 20
8.9871083035032768
 30
0.0
 11
3.2761359627952809
 21
7.8189980299032751
 31
0.0
  0
LINE
  5
43F
  8
DRIVE_TANG
  6
HIDDEN
 10
2.191096557995281
 20
8.9871083035032768
 30
0.0
 11
2.191096557995281
 21
7.8189980299032751
 31
0.0
  0
LINE
  5
440
  8
DRIVE_TANG
  6
HIDDEN
 10
2.191096557995281
 20
7.8189980299032751
 30
0.0
 11
2.5367658603952812
 21
7.8189980299032742
 31
0.0
  0
LINE
  5
932
  8
2-7
 10
0.9835287421174452
 20
13.231090400945829
 30
0.0
 11
4.4837037786731129
 21
13.231090400945829
 31
0.0
  0
ARC
  5
935
  8
2-7
 10
2.7336162603952809
 20
15.967310960945831
 30
0.0
 40
3.2480316
 50
62.602993987274182
 51
117.3970060127257
  0
LINE
  5
9C3
  8
2-7
 10
-0.511064014060916
 20
7.3233287227032813
 30
0.0
 11
-0.511064014060916
 21
4.105572714223281
 31
0.0
  0
LINE
  5
9C4
  8
2-7
 10
0.9835287421174452
 20
7.3233287227032804
 30
0.0
 11
0.9835287421174452
 21
4.1055727142232801
 31
0.0
  0
CIRCLE
  5
9F3
  8
CENTERLINE
 10
2.7336162603952809
 20
15.967310960945831
 30
0.0
 40
0.6299212800000001
  0
LINE
  5
9F5
  8
2-7
  6
HIDDEN
 10
3.8162934603952809
 20
7.2052184827032777
 30
0.0
 11
1.6509390603952809
 21
7.2052184827032777
 31
0.0
  0
LINE
  5
9F6
  8
2-7
  6
HIDDEN
 10
1.6509390603952809
 20
7.2052184827032777
 30
0.0
 11
1.6509390603952809
 21
7.3233287227032777
 31
0.0
  0
LINE
  5
9F8
  8
2-7
  6
HIDDEN
 10
3.8162934603952809
 20
7.2052184827032777
 30
0.0
 11
3.8162934603952809
 21
7.3233287227032777
 31
0.0
  0
LINE
  5
A26
  8
DRIVE_INPUT
 10
2.930466660395282
 20
16.48214156130317
 30
0.0
 11
2.930466660395282
 21
15.452480360588501
 31
0.0
  0
LINE
  5
A27
  8
DRIVE_INPUT
 10
2.5367658603952821
 20
15.452480360588501
 30
0.0
 11
2.5367658603952821
 21
16.48214156130317
 31
0.0
  0
CIRCLE
  5
A2B
  8
DRIVE_INPUT
 10
2.7336162603952809
 20
15.967310960945831
 30
0.0
 40
0.5511811200000001
  0
CIRCLE
  5
CDA
  8
2-7
  6
HIDDEN
 10
2.7336162603952809
 20
17.424003920945829
 30
0.0
 40
1.2578740559999999
  0
CIRCLE
  5
CDB
  8
2-7
  6
HIDDEN
 10
2.7336162603952809
 20
16.597232240945829
 30
0.0
 40
0.4311023760000001
  0
CIRCLE
  5
CDC
  8
2-7
  6
HIDDEN
 10
2.7336162603952809
 20
18.250775600945829
 30
0.0
 40
0.4311023760000001
  0
CIRCLE
  5
CDD
  8
2-7
  6
HIDDEN
 10
2.7336162603952809
 20
17.424003920945829
 30
0.0
 40
0.25590552
  0
POLYLINE
  5
CDE
  8
2-7
  6
HIDDEN
 66
     1
 10
0.0
 20
0.0
 30
0.0
 70
     1
  0
VERTEX
  5
10D7
  8
2-7
  6
HIDDEN
 10
2.4580257003952801
 20
17.264891636943709
 30
0.0
  0
VERTEX
  5
10D8
  8
2-7
  6
HIDDEN
 10
2.7336162603952801
 20
17.105779352941589
 30
0.0
  0
VERTEX
  5
10D9
  8
2-7
  6
HIDDEN
 10
3.00920682039528
 20
17.264891636943709
 30
0.0
  0
VERTEX
  5
10DA
  8
2-7
  6
HIDDEN
 10
3.00920682039528
 20
17.583116204947949
 30
0.0
  0
VERTEX
  5
10DB
  8
2-7
  6
HIDDEN
 10
2.7336162603952801
 20
17.742228488950069
 30
0.0
  0
VERTEX
  5
10DC
  8
2-7
  6
HIDDEN
 10
2.4580257003952801
 20
17.583116204947949
 30
0.0
  0
SEQEND
  5
10DD
  8
2-7
  6
HIDDEN
  0
LINE
  5
CDF
  8
2-7
 10
2.7372753132692278
 20
3.307580562703281
 30
0.0
 11
5.2530234252692303
 21
3.307580562703281
 31
0.0
  0
LINE
  5
CE1
  8
2-7
 10
2.8480417152596922
 20
1.81151752270328
 30
0.0
 11
2.8480417152596922
 21
3.307580562703281
 31
0.0
  0
LINE
  5
CE2
  8
2-7
 10
3.7102464672596911
 20
1.81151752270328
 30
0.0
 11
3.7102464672596911
 21
3.0154151990232809
 31
0.0
  0
CIRCLE
  5
CE3
  8
2-7
 10
3.279144091259691
 20
2.4808088827032799
 30
0.0
 40
0.11811024
  0
LINE
  5
CE4
  8
2-7
 10
2.8480417152596922
 20
1.81151752270328
 30
0.0
 11
3.7102464672596911
 21
1.81151752270328
 31
0.0
  0
LINE
  5
CE6
  8
2-7
 10
2.7372753132692278
 20
3.307580562703281
 30
0.0
 11
2.7372753132692278
 21
4.1055727142232801
 31
0.0
  0
ARC
  5
CE7
  8
2-7
 10
3.9951493692692299
 20
3.0359204490232798
 30
0.0
 40
0.2567257299999997
 50
184.58122008527729
 51
355.41877991472262
  0
LINE
  5
CE8
  8
2-7
 10
4.3212479532734687
 20
3.294942767023282
 30
0.0
 11
3.6690507852649898
 21
3.294942767023282
 31
0.0
  0
LINE
  5
CE9
  8
2-7
 10
3.67692480126499
 20
3.0154151990232809
 30
0.0
 11
4.3133739372734698
 21
3.0154151990232809
 31
0.0
  0
LINE
  5
CEA
  8
2-7
 10
3.67692480126499
 20
3.0154151990232809
 30
0.0
 11
3.67692480126499
 21
3.294942767023282
 31
0.0
  0
LINE
  5
CEB
  8
2-7
 10
3.83603708526711
 20
3.0154151990232809
 30
0.0
 11
3.83603708526711
 21
3.294942767023282
 31
0.0
  0
LINE
  5
CEC
  8
2-7
 10
3.6690507852649898
 20
3.294942767023282
 30
0.0
 11
3.6690507852649898
 21
3.3087222950232831
 31
0.0
  0
LINE
  5
CED
  8
2-7
 10
4.1542616532713499
 20
3.0154151990232809
 30
0.0
 11
4.1542616532713499
 21
3.294942767023282
 31
0.0
  0
LINE
  5
CEE
  8
2-7
 10
4.3133739372734698
 20
3.0154151990232809
 30
0.0
 11
4.3133739372734698
 21
3.294942767023282
 31
0.0
  0
LINE
  5
CEF
  8
2-7
 10
4.3212479532734687
 20
3.294942767023282
 30
0.0
 11
4.3212479532734687
 21
3.3087222950232831
 31
0.0
  0
LINE
  5
CF0
  8
2-7
 10
5.2530234252692303
 20
3.307580562703281
 30
0.0
 11
5.2530234252692303
 21
4.1055727142232801
 31
0.0
  0
CIRCLE
  5
CFD
  8
2-7
  6
HIDDEN
 10
1.4720831515213351
 20
15.23896448094583
 30
0.0
 40
1.2578740559999999
  0
CIRCLE
  5
CFE
  8
2-7
  6
HIDDEN
 10
1.4720831515213351
 20
15.23896448094583
 30
0.0
 40
0.25590552
  0
POLYLINE
  5
CFF
  8
2-7
  6
HIDDEN
 66
     1
 10
0.0
 20
0.0
 30
0.0
 70
     1
  0
VERTEX
  5
10DE
  8
2-7
  6
HIDDEN
 10
1.747673711521335
 20
15.07985219694371
 30
0.0
  0
VERTEX
  5
10DF
  8
2-7
  6
HIDDEN
 10
1.747673711521337
 20
15.39807676494795
 30
0.0
  0
VERTEX
  5
10E0
  8
2-7
  6
HIDDEN
 10
1.4720831515213351
 20
15.55718904895007
 30
0.0
  0
VERTEX
  5
10E1
  8
2-7
  6
HIDDEN
 10
1.1964925915213349
 20
15.39807676494795
 30
0.0
  0
VERTEX
  5
10E2
  8
2-7
  6
HIDDEN
 10
1.1964925915213369
 20
15.07985219694371
 30
0.0
  0
VERTEX
  5
10E3
  8
2-7
  6
HIDDEN
 10
1.4720831515213351
 20
14.92073991294159
 30
0.0
  0
SEQEND
  5
10E4
  8
2-7
  6
HIDDEN
  0
CIRCLE
  5
D00
  8
2-7
  6
HIDDEN
 10
2.188088429530874
 20
15.65235032094583
 30
0.0
 40
0.4311023760000001
  0
CIRCLE
  5
D01
  8
2-7
  6
HIDDEN
 10
0.756077873511797
 20
14.825578640945841
 30
0.0
 40
0.4311023760000001
  0
CIRCLE
  5
D02
  8
2-7
  6
HIDDEN
 10
3.995149369269229
 20
15.23896448094583
 30
0.0
 40
1.2578740559999999
  0
CIRCLE
  5
D03
  8
2-7
  6
HIDDEN
 10
3.995149369269229
 20
15.23896448094583
 30
0.0
 40
0.25590552
  0
POLYLINE
  5
D04
  8
2-7
  6
HIDDEN
 66
     1
 10
0.0
 20
0.0
 30
0.0
 70
     1
  0
VERTEX
  5
10E5
  8
2-7
  6
HIDDEN
 10
3.9951493692692281
 20
15.55718904895007
 30
0.0
  0
VERTEX
  5
10E6
  8
2-7
  6
HIDDEN
 10
3.7195588092692251
 20
15.39807676494795
 30
0.0
  0
VERTEX
  5
10E7
  8
2-7
  6
HIDDEN
 10
3.7195588092692282
 20
15.07985219694371
 30
0.0
  0
VERTEX
  5
10E8
  8
2-7
  6
HIDDEN
 10
3.9951493692692281
 20
14.92073991294159
 30
0.0
  0
VERTEX
  5
10E9
  8
2-7
  6
HIDDEN
 10
4.270739929269225
 20
15.07985219694371
 30
0.0
  0
VERTEX
  5
10EA
  8
2-7
  6
HIDDEN
 10
4.2707399292692276
 20
15.39807676494795
 30
0.0
  0
SEQEND
  5
10EB
  8
2-7
  6
HIDDEN
  0
CIRCLE
  5
D05
  8
2-7
  6
HIDDEN
 10
3.279144091259691
 20
15.65235032094583
 30
0.0
 40
0.4311023760000001
  0
CIRCLE
  5
D06
  8
2-7
  6
HIDDEN
 10
4.711154647278768
 20
14.82557864094583
 30
0.0
 40
0.4311023760000001
  0
CIRCLE
  5
D07
  8
CENTERLINE
 10
2.7336162603952809
 20
15.967310960945831
 30
0.0
 40
2.28346464
  0
ARC
  5
D09
  8
2-7
 10
2.7336162603952849
 20
15.967310960945831
 30
0.0
 40
3.2480316
 50
182.602993987274
 51
237.39700601272591
  0
LINE
  5
D0A
  8
2-7
 10
5.9782965348514781
 20
15.819800991271171
 30
0.0
 11
4.2282090165736568
 21
18.851041490620489
 31
0.0
  0
ARC
  5
D0B
  8
2-7
 10
2.7336162603952809
 20
15.967310960945831
 30
0.0
 40
3.2480316
 50
302.60299398727432
 51
357.39700601272568
  0
LINE
  5
D0C
  8
2-7
 10
1.239023504216912
 20
18.851041490620489
 30
0.0
 11
-0.511064014060916
 21
15.81980099127118
 31
0.0
  0
LINE
  5
D0D
  8
2-7
 10
3.7102464672596911
 20
3.294942767023282
 30
0.0
 11
3.7102464672596911
 21
3.307580562703281
 31
0.0
  0
LINE
  5
D0E
  8
2-7
 10
2.7299572075213301
 20
3.307580562703281
 30
0.0
 11
0.2142090955213293
 21
3.307580562703281
 31
0.0
  0
LINE
  5
D0F
  8
2-7
 10
2.7299572075213301
 20
3.307580562703281
 30
0.0
 11
2.7299572075213301
 21
4.1055727142232801
 31
0.0
  0
LINE
  5
D10
  8
2-7
 10
2.619190805530867
 20
1.81151752270328
 30
0.0
 11
1.7569860535308679
 21
1.81151752270328
 31
0.0
  0
CIRCLE
  5
D11
  8
2-7
 10
2.1880884295308669
 20
2.4808088827032799
 30
0.0
 40
0.11811024
  0
LINE
  5
D12
  8
2-7
 10
2.619190805530867
 20
1.81151752270328
 30
0.0
 11
2.619190805530867
 21
3.307580562703281
 31
0.0
  0
ARC
  5
D13
  8
2-7
 10
1.472083151521328
 20
3.0359204490232798
 30
0.0
 40
0.2567257299999997
 50
184.58122008527741
 51
355.41877991472262
  0
LINE
  5
D14
  8
2-7
 10
1.145984567517089
 20
3.294942767023282
 30
0.0
 11
1.798181735525568
 21
3.294942767023282
 31
0.0
  0
LINE
  5
D15
  8
2-7
 10
1.7903077195255681
 20
3.0154151990232809
 30
0.0
 11
1.153858583517088
 21
3.0154151990232809
 31
0.0
  0
LINE
  5
D16
  8
2-7
 10
1.7569860535308679
 20
1.81151752270328
 30
0.0
 11
1.756986053530867
 21
3.0154151990232809
 31
0.0
  0
LINE
  5
D17
  8
2-7
 10
1.7903077195255681
 20
3.0154151990232809
 30
0.0
 11
1.7903077195255681
 21
3.294942767023282
 31
0.0
  0
LINE
  5
D18
  8
2-7
 10
1.7569860535308679
 20
3.294942767023282
 30
0.0
 11
1.7569860535308679
 21
3.307580562703281
 31
0.0
  0
LINE
  5
D19
  8
2-7
 10
1.798181735525568
 20
3.294942767023282
 30
0.0
 11
1.798181735525568
 21
3.3087222950232831
 31
0.0
  0
LINE
  5
D1A
  8
2-7
 10
1.6311954355234479
 20
3.0154151990232809
 30
0.0
 11
1.6311954355234479
 21
3.294942767023282
 31
0.0
  0
LINE
  5
D1B
  8
2-7
 10
1.312970867519208
 20
3.0154151990232809
 30
0.0
 11
1.312970867519208
 21
3.294942767023282
 31
0.0
  0
LINE
  5
D1C
  8
2-7
 10
1.153858583517088
 20
3.0154151990232809
 30
0.0
 11
1.153858583517088
 21
3.294942767023282
 31
0.0
  0
LINE
  5
D1D
  8
2-7
 10
1.145984567517089
 20
3.294942767023282
 30
0.0
 11
1.145984567517089
 21
3.3087222950232831
 31
0.0
  0
LINE
  5
D1E
  8
2-7
 10
0.2142090955213293
 20
3.307580562703281
 30
0.0
 11
0.2142090955213293
 21
4.1055727142232801
 31
0.0
  0
LINE
  5
D1F
  8
2-7
  6
HIDDEN
 10
2.3025138843952808
 20
1.81151752270328
 30
0.0
 11
3.1647186363952811
 21
1.81151752270328
 31
0.0
  0
LINE
  5
D20
  8
2-7
  6
HIDDEN
 10
3.1647186363952811
 20
1.81151752270328
 30
0.0
 11
3.1647186363952811
 21
3.307580562703281
 31
0.0
  0
LINE
  5
D21
  8
2-7
  6
HIDDEN
 10
2.3025138843952808
 20
1.81151752270328
 30
0.0
 11
2.3025138843952808
 21
3.307580562703281
 31
0.0
  0
LINE
  5
D7F
  8
2-7
 10
5.9782965348514736
 20
7.3233287227032813
 30
0.0
 11
5.9782965348514736
 21
4.105572714223281
 31
0.0
  0
LINE
  5
D80
  8
2-7
 10
4.4837037786731129
 20
7.3233287227032804
 30
0.0
 11
4.4837037786731129
 21
4.1055727142232801
 31
0.0
  0
LINE
  5
DD2
  8
2-7
  6
HIDDEN
 10
0.9304665963952853
 20
6.8508877627032767
 30
0.0
 11
1.0288917963952839
 21
6.7784975941480994
 31
0.0
  0
LINE
  5
DD3
  8
2-7
  6
HIDDEN
 10
1.147002036395286
 20
6.890257842703277
 30
0.0
 11
0.910781556395284
 21
6.8902578427032779
 31
0.0
  0
LINE
  5
DD4
  8
2-7
  6
HIDDEN
 10
1.127316996395284
 20
7.3233287227032768
 30
0.0
 11
1.127316996395284
 21
6.8508877627032767
 31
0.0
  0
LINE
  5
DD5
  8
2-7
  6
HIDDEN
 10
1.147002036395284
 20
7.3233287227032768
 30
0.0
 11
1.147002036395286
 21
6.890257842703277
 31
0.0
  0
LINE
  5
DD6
  8
2-7
  6
HIDDEN
 10
1.127316996395284
 20
6.8508877627032767
 30
0.0
 11
1.0288917963952839
 21
6.7784975941480994
 31
0.0
  0
LINE
  5
DD7
  8
2-7
  6
HIDDEN
 10
0.9107815563952847
 20
7.3233287227032768
 30
0.0
 11
0.910781556395284
 21
6.8902578427032779
 31
0.0
  0
LINE
  5
DD8
  8
2-7
  6
HIDDEN
 10
0.9304665963952846
 20
7.3233287227032768
 30
0.0
 11
0.9304665963952853
 21
6.8508877627032767
 31
0.0
  0
LINE
  5
DD9
  8
DRIVE_TANG
  6
HIDDEN
 10
2.9304666603952811
 20
7.8189980299032751
 30
0.0
 11
2.9304666603952811
 21
7.4020688827032757
 31
0.0
  0
LINE
  5
DDA
  8
DRIVE_TANG
  6
HIDDEN
 10
2.9304666603952811
 20
7.4020688827032757
 30
0.0
 11
2.5367658603952812
 21
7.4020688827032757
 31
0.0
  0
LINE
  5
DDB
  8
DRIVE_TANG
  6
HIDDEN
 10
2.5367658603952812
 20
7.4020688827032757
 30
0.0
 11
2.5367658603952812
 21
7.8189980299032751
 31
0.0
  0
LINE
  5
DDE
  8
DRIVE_TANG
  6
HIDDEN
 10
2.9304666603952811
 20
7.8189980299032742
 30
0.0
 11
3.2761359627952809
 21
7.8189980299032751
 31
0.0
  0
CIRCLE
  5
EA4
  8
ADAPTER
 10
2.7336162603952809
 20
17.935757217314912
 30
0.0
 40
0.12795276
  0
CIRCLE
  5
EA6
  8
ADAPTER
 10
2.7336162603952809
 20
15.967310960945831
 30
0.0
 40
0.7874016000000002
  0
CIRCLE
  5
EA7
  8
ADAPTER
 10
2.7336162603952809
 20
15.967310960945831
 30
0.0
 40
1.080708695999999
  0
CIRCLE
  5
EA8
  8
ADAPTER
 10
2.7336162603952809
 20
15.967310960945831
 30
0.0
 40
1.460629967999999
  0
LINE
  5
EA9
  8
ADAPTER
  6
HIDDEN
 10
3.8143249563952808
 20
7.217029506703275
 30
0.0
 11
1.6529075643952791
 21
7.217029506703275
 31
0.0
  0
LINE
  5
EAA
  8
ADAPTER
 10
0.3910965003952818
 20
7.3233287227032768
 30
0.0
 11
5.076136020395281
 21
7.3233287227032768
 31
0.0
  0
LINE
  5
EAB
  8
ADAPTER
 10
1.2729862923952799
 20
10.06348629070327
 30
0.0
 11
4.1942462283952811
 21
10.06348629070327
 31
0.0
  0
LINE
  5
EAC
  8
ADAPTER
 10
0.3910965003952818
 20
7.7233287355032756
 30
0.0
 11
5.076136020395281
 21
7.7233287355032756
 31
0.0
  0
LINE
  5
EAD
  8
ADAPTER
  6
HIDDEN
 10
1.6529075643952791
 20
10.06348629070327
 30
0.0
 11
1.6529075643952791
 21
7.7233287355032756
 31
0.0
  0
LINE
  5
EAE
  8
ADAPTER
 10
1.2729862923952799
 20
10.06348629070327
 30
0.0
 11
1.2729862923952799
 21
7.7233287355032756
 31
0.0
  0
LINE
  5
EAF
  8
ADAPTER
 10
0.3910965003952818
 20
7.7233287355032756
 30
0.0
 11
0.3910965003952818
 21
7.3233287227032768
 31
0.0
  0
LINE
  5
EB0
  8
ADAPTER
  6
HIDDEN
 10
0.9009390363952846
 20
7.7233287355032756
 30
0.0
 11
0.9009390363952846
 21
7.3233287227032768
 31
0.0
  0
LINE
  5
EB1
  8
ADAPTER
  6
HIDDEN
 10
1.6536249259805951
 20
8.9297360223405224
 30
0.0
 11
1.2729862923952799
 21
8.9297360223405224
 31
0.0
  0
LINE
  5
EB2
  8
ADAPTER
  6
HIDDEN
 10
1.1568445563952841
 20
7.7233287355032756
 30
0.0
 11
1.1568445563952841
 21
7.3233287227032768
 31
0.0
  0
LINE
  5
EB3
  8
ADAPTER
  6
HIDDEN
 10
1.6529075643952791
 20
7.3233287227032768
 30
0.0
 11
1.6529075643952791
 21
7.217029506703275
 31
0.0
  0
LINE
  5
EB4
  8
ADAPTER
  6
HIDDEN
 10
1.946214660395281
 20
7.7233287355032756
 30
0.0
 11
1.946214660395281
 21
7.217029506703275
 31
0.0
  0
LINE
  5
EB5
  8
ADAPTER
  6
HIDDEN
 10
2.6056635003952811
 20
7.7233287355032756
 30
0.0
 11
2.6056635003952811
 21
7.3233287227032768
 31
0.0
  0
CIRCLE
  5
EB6
  8
ADAPTER
 10
1.0288917963952839
 20
14.98308783276129
 30
0.0
 40
0.12795276
  0
LINE
  5
EB7
  8
ADAPTER
 10
1.27351698287321
 20
15.92794088094583
 30
0.0
 11
1.653624925980596
 21
15.92794088094583
 31
0.0
  0
LINE
  5
EB8
  8
ADAPTER
 10
1.27351698287321
 20
16.006681040945828
 30
0.0
 11
1.653624925980596
 21
16.006681040945828
 31
0.0
  0
LINE
  5
EB9
  8
ADAPTER
  6
HIDDEN
 10
3.8143249563952808
 20
10.06348629070327
 30
0.0
 11
3.8143249563952808
 21
7.7233287355032756
 31
0.0
  0
POLYLINE
  5
EBA
  8
ADAPTER
 66
     1
 10
0.0
 20
0.0
 30
0.0
 70
     1
  0
VERTEX
  5
10EC
  8
ADAPTER
 10
4.2039981427153101
 20
9.5369114549552432
 30
0.0
  0
VERTEX
  5
10ED
  8
ADAPTER
 10
4.0676161940913369
 20
9.3006909907032771
 30
0.0
  0
VERTEX
  5
10EE
  8
ADAPTER
 10
4.2039981427153066
 20
9.0644705264513092
 30
0.0
  0
VERTEX
  5
10EF
  8
ADAPTER
 10
4.4767620399632522
 20
9.0644705264513092
 30
0.0
  0
VERTEX
  5
10F0
  8
ADAPTER
 10
4.6131439885872263
 20
9.3006909907032771
 30
0.0
  0
VERTEX
  5
10F1
  8
ADAPTER
 10
4.4767620399632522
 20
9.5369114549552432
 30
0.0
  0
SEQEND
  5
10F2
  8
ADAPTER
  0
CIRCLE
  5
EBB
  8
ADAPTER
 10
4.3403800913392789
 20
9.3006909907032771
 30
0.0
 40
0.219347573948256
  0
LINE
  5
EBC
  8
ADAPTER
  6
HIDDEN
 10
3.648576919595282
 20
9.9650610907032764
 30
0.0
 11
3.648576919595282
 21
8.636320890703276
 31
0.0
  0
LINE
  5
EBD
  8
ADAPTER
 10
4.6328289195952816
 20
9.9650610907032764
 30
0.0
 11
4.6328289195952816
 21
8.636320890703276
 31
0.0
  0
LINE
  5
EBE
  8
ADAPTER
  6
HIDDEN
 10
3.8143249563952808
 20
8.9297360223405224
 30
0.0
 11
4.632828919595279
 21
8.9297360223405224
 31
0.0
  0
LINE
  5
EBF
  8
ADAPTER
 10
4.6328289195952816
 20
8.636320890703276
 30
0.0
 11
3.648576919595282
 21
8.636320890703276
 31
0.0
  0
LINE
  5
EC0
  8
ADAPTER
  6
HIDDEN
 10
2.8615690203952808
 20
7.7233287355032756
 30
0.0
 11
2.8615690203952808
 21
7.3233287227032768
 31
0.0
  0
LINE
  5
EC1
  8
ADAPTER
  6
HIDDEN
 10
3.5210178603952809
 20
7.7233287355032756
 30
0.0
 11
3.5210178603952809
 21
7.217029506703275
 31
0.0
  0
LINE
  5
EC2
  8
ADAPTER
  6
HIDDEN
 10
3.8143249563952808
 20
7.3233287227032768
 30
0.0
 11
3.8143249563952808
 21
7.217029506703275
 31
0.0
  0
LINE
  5
EC3
  8
ADAPTER
 10
4.1942462283952819
 20
8.636320890703276
 30
0.0
 11
4.1942462283952819
 21
7.7233287355032756
 31
0.0
  0
LINE
  5
EC4
  8
ADAPTER
  6
HIDDEN
 10
4.3103879643952796
 20
7.7233287355032756
 30
0.0
 11
4.3103879643952796
 21
7.3233287227032768
 31
0.0
  0
LINE
  5
EC5
  8
ADAPTER
  6
HIDDEN
 10
4.5662934843952803
 20
7.7233287355032756
 30
0.0
 11
4.5662934843952803
 21
7.3233287227032768
 31
0.0
  0
LINE
  5
EC6
  8
ADAPTER
 10
5.076136020395281
 20
7.7233287355032756
 30
0.0
 11
5.076136020395281
 21
7.3233287227032768
 31
0.0
  0
CIRCLE
  5
EC7
  8
ADAPTER
  6
HIDDEN
 10
4.4383407243952844
 20
14.98308783276129
 30
0.0
 40
0.12795276
  0
LINE
  5
EC8
  8
ADAPTER
 10
3.8136075948099681
 20
15.92794088094583
 30
0.0
 11
4.6328289195952816
 21
15.92794088094583
 31
0.0
  0
LINE
  5
EC9
  8
ADAPTER
 10
3.8136075948099681
 20
16.006681040945828
 30
0.0
 11
4.6328289195952816
 21
16.006681040945828
 31
0.0
  0
ARC
  5
ECA
  8
ADAPTER
 10
4.340380091339286
 20
15.10474904325808
 30
0.0
 40
0.2757443010988207
 50
240.356905410037
 51
299.6430945899599
  0
LINE
  5
ECB
  8
ADAPTER
 10
4.1358071684033231
 20
14.82900474215926
 30
0.0
 11
4.5449530142752383
 21
14.82900474215926
 31
0.0
  0
LINE
  5
ECC
  8
ADAPTER
 10
4.0479311540913354
 20
15.111011720945831
 30
0.0
 11
4.6328290285872242
 21
15.111011720945831
 31
0.0
  0
LINE
  5
ECD
  8
ADAPTER
 10
4.6328289195952816
 20
15.170066840945831
 30
0.0
 11
4.0184010243043593
 21
15.170066840945831
 31
0.0
  0
LINE
  5
ECE
  8
ADAPTER
 10
4.6328289195952816
 20
16.764555080945829
 30
0.0
 11
3.2900399623952481
 21
17.317804414196281
 31
0.0
  0
LINE
  5
ECF
  8
ADAPTER
 10
3.648576919595282
 20
9.9650610907032817
 30
0.0
 11
4.6328289195952816
 21
9.9650610907032764
 31
0.0
  0
LINE
  5
ED0
  8
ADAPTER
 10
4.067616194091336
 20
15.111011720945831
 30
0.0
 11
4.067616194091336
 21
14.8650932824719
 31
0.0
  0
LINE
  5
ED1
  8
ADAPTER
 10
4.2039981427153066
 20
15.111011720945831
 30
0.0
 11
4.2039981427153066
 21
14.865093282471889
 31
0.0
  0
LINE
  5
ED2
  8
ADAPTER
 10
4.0184010243043593
 20
15.170066840945831
 30
0.0
 11
4.0184010243043593
 21
14.916913267126599
 31
0.0
  0
LINE
  5
ED3
  8
ADAPTER
 10
4.0184010243043593
 20
14.916913267126599
 30
0.0
 11
3.2900399623952481
 21
14.61681750769538
 31
0.0
  0
LINE
  5
ED4
  8
ADAPTER
 10
4.1942462283952811
 20
10.06348629070327
 30
0.0
 11
4.1942462283952811
 21
9.9650610907032782
 31
0.0
  0
ARC
  5
ED5
  8
ADAPTER
 10
4.1358071684033231
 20
14.9114740200512
 30
0.0
 40
0.0824692778919425
 50
214.22194995231979
 51
325.77805004767743
  0
LINE
  5
ED6
  8
ADAPTER
 10
4.0479311540913354
 20
15.111011720945831
 30
0.0
 11
4.0479311540913354
 21
15.170066840945831
 31
0.0
  0
LINE
  5
ED7
  8
ADAPTER
 10
4.4767620399632531
 20
15.111011720945831
 30
0.0
 11
4.4767620399632531
 21
14.865093282471889
 31
0.0
  0
LINE
  5
ED8
  8
ADAPTER
 10
4.6131439885872236
 20
15.111011720945831
 30
0.0
 11
4.6131439885872236
 21
14.8650932824719
 31
0.0
  0
ARC
  5
ED9
  8
ADAPTER
 10
4.5449530142752383
 20
14.9114740200512
 30
0.0
 40
0.0824692778919425
 50
214.22194995232249
 51
325.7780500476801
  0
LINE
  5
EDA
  8
ADAPTER
 10
4.6328289195952816
 20
16.764555080945829
 30
0.0
 11
4.6328289195952816
 21
16.006681040945828
 31
0.0
  0
LINE
  5
EDB
  8
ADAPTER
 10
4.6328289195952816
 20
15.92794088094583
 30
0.0
 11
4.6328289195952816
 21
15.170066840945831
 31
0.0
  0
LINE
  5
EDC
  8
ADAPTER
 10
4.6328290285872242
 20
15.111011720945831
 30
0.0
 11
4.6328290285872242
 21
15.170066840945831
 31
0.0
  0
LINE
  5
EE1
  8
2-7
  6
HIDDEN
 10
2.8517265003952832
 20
6.890257842703277
 30
0.0
 11
2.6155060203952809
 21
6.8902578427032779
 31
0.0
  0
LINE
  5
EE2
  8
2-7
  6
HIDDEN
 10
2.8320414603952808
 20
6.8508877627032767
 30
0.0
 11
2.7336162603952809
 21
6.7784975941480994
 31
0.0
  0
LINE
  5
EE3
  8
2-7
  6
HIDDEN
 10
2.6155060203952809
 20
7.3233287227032768
 30
0.0
 11
2.6155060203952809
 21
6.8902578427032779
 31
0.0
  0
LINE
  5
EE4
  8
2-7
  6
HIDDEN
 10
2.6351910603952811
 20
7.3233287227032768
 30
0.0
 11
2.6351910603952819
 21
6.8508877627032767
 31
0.0
  0
LINE
  5
EE5
  8
2-7
  6
HIDDEN
 10
2.6351910603952819
 20
6.8508877627032767
 30
0.0
 11
2.7336162603952809
 21
6.7784975941480994
 31
0.0
  0
LINE
  5
EE6
  8
2-7
  6
HIDDEN
 10
2.8320414603952808
 20
7.3233287227032768
 30
0.0
 11
2.8320414603952808
 21
6.8508877627032767
 31
0.0
  0
LINE
  5
EE7
  8
2-7
  6
HIDDEN
 10
2.851726500395281
 20
7.3233287227032768
 30
0.0
 11
2.8517265003952832
 21
6.890257842703277
 31
0.0
  0
LINE
  5
EE8
  8
2-7
  6
HIDDEN
 10
4.5564509643952809
 20
6.890257842703277
 30
0.0
 11
4.320230484395279
 21
6.8902578427032779
 31
0.0
  0
LINE
  5
EE9
  8
2-7
  6
HIDDEN
 10
4.5367659243952794
 20
6.8508877627032767
 30
0.0
 11
4.438340724395279
 21
6.7784975941480994
 31
0.0
  0
LINE
  5
EEA
  8
2-7
  6
HIDDEN
 10
4.320230484395279
 20
7.3233287227032768
 30
0.0
 11
4.320230484395279
 21
6.8902578427032779
 31
0.0
  0
LINE
  5
EEB
  8
2-7
  6
HIDDEN
 10
4.3399155243952796
 20
7.3233287227032768
 30
0.0
 11
4.3399155243952796
 21
6.8508877627032767
 31
0.0
  0
LINE
  5
EEC
  8
2-7
  6
HIDDEN
 10
4.3399155243952796
 20
6.8508877627032767
 30
0.0
 11
4.438340724395279
 21
6.7784975941480994
 31
0.0
  0
LINE
  5
EED
  8
2-7
  6
HIDDEN
 10
4.5367659243952803
 20
7.3233287227032768
 30
0.0
 11
4.5367659243952794
 21
6.8508877627032767
 31
0.0
  0
LINE
  5
EEE
  8
2-7
  6
HIDDEN
 10
4.5564509643952791
 20
7.3233287227032768
 30
0.0
 11
4.5564509643952809
 21
6.890257842703277
 31
0.0
  0
CIRCLE
  5
EF2
  8
ADAPTER
 10
2.7336162603952809
 20
15.967310960945831
 30
0.0
 40
2.3425197600000001
  0
TEXT
  5
F7D
  8
0
 10
-0.9455198035260465
 20
11.219791647655541
 30
0.0
 40
0.125
  1
THE ADAPTER SHOWN IN THIS DRAWING IS ONLY TO ILLUSTRATE A TYPICAL ADAPTER
  7
ARIAL
  0
CIRCLE
  5
1048
  8
2-7
  6
HIDDEN
 10
2.7336162603952792
 20
15.967310960945831
 30
0.0
 40
1.0826772
  0
ENDSEC
  0
EOF
